"Amanda Gently" by 5591 (Justin Furstenfeld)
(Transcription by AggiePhil--phil@phildorsett.com)


Intro & Verses ("I stood there staring at the street...")
(Strum)

e|-------x--------x--------x--------x--------x--------x--------x--------
b|-------3--------3--------x--------x--------x--------x--------x--------
g|-------2--------0--------0--------0--------2--------0--------2--------
D|-------0--------0--------0--------2--------2--------2--------2--------
A|-------0--------2--------0--------2--------0--------2--------0--------
E|-------x--------3--------2--------x--------x--------x--------x--------
---------D--------G-------G/F#------Em-----Asus2------Em-----Asus2------



Chorus ("And maybe we'll laugh, and maybe we'll fight...")
(Strum)

e|-------x--------x--------x--------x--------x--------
b|-------x--------x--------3--------3--------x--------
g|-------0--------2--------2--------0--------0--------
D|-------2--------2--------0--------0--------0--------
A|-------2--------0--------0--------2--------0--------
E|-------x--------x--------x--------3--------2--------
---------Em-----Asus2------D--------G-------G/F#------


It sounds a little something like this