"Breakfast After Ten" by Blue October
(Transcription by AggiePhil--phil@phildorsett.com)



Intro & 1st Part of 1st Verse ("White kitchen walls with a thousand windows...")
(Strum)

e|-------x--------x--------x---------x--------x--------
b|-------x--------x--------x---------0--------x--------
g|-------4--------x--------4---------0--------x--------
D|-------5--------4--------5---------2--------4--------
A|-------5--------5--------5---------2-----h3-5--------
E|-------3--------5--------3--0-2-0--0-----h3-5--------
---------G--------D--------G---------Em-------D--------
Recording of the intro above (click here); note: in this recording, I played the G to Em part more like it's done on the version of the song on "The Answers" album, NOT like it's shown on this tab



2nd Part of 1st Verse ("And I smell the coffee on your fingers...") & On
(Strum)

e|-------x--------x--------x--------x--------x--------
b|-------x--------x--------0--------x--------x--------
g|-------4--------x--------0--------4--------x--------
D|-------5--------4--------2--------5--------4--------
A|-------5--------5--------2--------5--------5--------
E|-------3--------5--------0--------3--------5--------
---------G--------D--------Em-------G--------D--------



*You can strum an open D string-by-string if you'd like at the very end:
e|-------2-------
b|-------3-------
g|-------2-------
D|-------0-------
A|-------0-------
E|-------x-------