"Balance Beam" by Blue October
(Transcription by AggiePhil--phil@phildorsett.com)


Intro & Verses ("I haven't been quite the same...")
(Strum)

e|-------x--------x--------x--------x--------x--------
b|-------3--------3--------1--------0--------3--------
g|-------0--------0--------0--------0--------2--------
D|-------0--------4--------2--------2--------0--------
A|-------2--------5--------3--------2--------0--------
E|-------3--------x--------x--------x--------x--------
---------G------Dadd4------C--------Em-------D--------



Chorus ("One, you gotta take it kind of slowly...")
(Strum each chord once, then mute)

e|-------x--------x--------x--------x--------x--------
b|-------3--------1--------3--------3--------1--------
g|-------0--------0--------0--------2--------0--------
D|-------0--------2--------0--------0--------2--------
A|-------2--------3--------2--------0--------3--------
E|-------3--------x--------3--------x--------x--------
---------G--------C--------G--------D--------C--------