"Blue Sunshine" by Blue October
(Transcription by AggiePhil--phil@phildorsett.com)



1st half Intro
(Pick)

e|-----------------------------------------------------------------------------------------------------------------------------------------------------
b|----0----------0-------------0---------0----------0-------------0---------0----------0-------------0---------0----------0-------------0--------------
g|--------0----------------------------------0----------------------------------0----------------------------------0-----------------------------------
D|------2----------------------------------2----------------------------------2----------------------------------2-------------------------------------
A|----3--------3---3-3-slide-5---5-slide-3--------3---3-3-slide-5---5-slide-3--------3---3-3-slide-5---5-slide-3--------3---3-3-slide-5---5-slide-3----
E|-----------------------------------------------------------------------------------------------------------------------------------------------------



2nd half Intro & Verses
(Pick)
• starts when the drums come in
• "x" denotes a mute


e|---------------------------------------------------------------------------------------------------------------------------------------------
b|----0----------0-----------0---------0----------0-----------0---------0----------0-----------0---------0----------0-----------0---------0----
g|--------0--------------------------------0--------------------------------0--------------------------------0---------------------------------
D|------2--------------------------------2--------------------------------2--------------------------------2-----------------------------------
A|----------3x-3---3-slide-5---5-slide-3-----3x-3---3-slide-5---5-slide-3-----3x-3---3-slide-5---5-slide-3-----3x-3---3-slide-5---5-slide-3----
E|---------------------------------------------------------------------------------------------------------------------------------------------



Chorus (No lyrics sung the first time through)
(Strum)
• Let final F chord ring

e|----x----x----x----x----x----x----x-------x----x----x----x----x----x-------x----x----x----x----x----x----x----x-------x----x----x----x----x----x----x----x----
b|----1----3----5----6----5----3----5-------1----3----5----6----5----3-------1----0----1----3----1----0----1----1-------1----0----1----3----1----0----1----1----
g|----0----0----0----0----0----0----0-------0----0----0----0----0----0-------0----0----0----0----0----0----0----2-------0----0----0----0----0----0----0----2----
D|----x----x----x----7----x----x----x-------x----x----x----7----x----x-------x----2----x----x----x----2----2----3-------x----2----x----x----x----2----2----3----
A|----3----5----7----8----7----5----7-------3----5----7----8----7----5-------3----2----3----5----3----2----0----3-------3----2----3----5----3----2----0----3----
E|----x----x----x----x----x----x----x-------x----x----x----x----x----x-------x----x----x----x----x----x----x----x-------x----x----x----x----x----x----x----x----
------C--Dadd4--E?---F?---E?-Dadd4-slide----C--Dadd4--E?---F?---E?-Dadd4-----C----Em---C--Dadd4--C----Em--Am7---F-------C----Em---C--Dadd4--C----Em---Am7--F----

Click here to hear a rough recording of the chorus played this way


Repeat Verses & Chorus