"Mr. Brightside" by The Killers
(Transcription by AggiePhil--phil@phildorsett.com)

Capo on Fret 1
*All fret numbers are relative to the capo!*

Intro & Verses ("Coming out of my cage and I've been doing just fine...")
(Strum down)

e|-------x--------x--------x--------
b|-------x--------x--------x--------
g|-------5--------4--------x--------
D|-------5--------4--------3--------
A|-------3--------2--------3--------
E|-------x--------x--------1--------
---------C5-------B5-------F5-------



Pre-Chorus ("But she's touching his chest now..." & "I just can't look, it's killing me...")
(Strum down)

e|-------x--------x--------x--------
b|-------x--------x--------x--------
g|-------x--------x--------x--------
D|-------7--------5--------3--------
A|-------7--------5--------3--------
E|-------5--------3--------1--------
---------A5-------G5-------F5-------



Chorus ("Jealousy, turning stains into the sea...")
(Strum down)

e|-------x--------x--------x--------x--------
b|-------1--------1--------1--------3--------
g|-------0--------2--------2--------0--------
D|-------2--------3--------2--------0--------
A|-------3--------3--------0--------2--------
E|-------x--------x--------x--------3--------
---------C--------F--------Am-------G--------



Instrumental Break (immediately after Chorus)
(Single strum)

e|-------x--------x--------x--------x--------
b|-------x--------x--------x--------x--------
g|-------5--------x--------x--------x--------
D|-------5--------3--------7--------5--------
A|-------3--------3--------7--------5--------
E|-------x--------1--------5--------3--------
---------C5-------F5-------A5-------G5-------



Outro ("I never...")
(Strum down)

e|-------x--------x--------x--------x--------
b|-------x--------x--------x--------x--------
g|-------5--------x--------x--------x--------
D|-------5--------3--------7--------5--------
A|-------3--------3--------7--------5--------
E|-------x--------1--------5--------3--------
---------C5-------F5-------A5-------G5-------