"Clumsy Card House" by Blue October
(Transcription by AggiePhil--phil@phildorsett.com)



Violin Intro
(Palm mute and pick near bridge)
(Kind of Finger: C, Em, C)

e|------------------------------------------------------------------
b|---------1-----1---0-------------1-----1---5-0-0------------------
g|-----------0-----0---0--------------0-----0-------0---------------
D|-------------2---------0-2-------------2-------------0-2----------
A|-------3-------------------2-3-2-------------------------3--------
E|---------------------------------3--------------------------------



"By the way, by your side I'll stay..."
(Finger: C)

e|--------------------------------------------------
b|---------1-1x-0-----------1-1x-5x-0x-0------------
g|--------------------------------------------------
D|----------------2-2-2-2----------------2-2--------
A|-------3----------------3-------------------------
E|--------------------------------------------------



"Here I'm standing up..."

e|----------------------------------------------
b|---------5---5-----------5---5----------------
g|-----------------2---------------2------------
D|-------3---3---3---3-3-3---3---3---3-3--------
A|----------------------------------------------
E|----------------------------------------------



"And all our kids could play..."
(Finger: G)

e|----------------------------------------------------
b|-------------0---------0---------0---------0--------
g|---------------0---------0---------0----------------
D|-----------0---------0---------0---------0----------
A|---------2---------2---------2---------2------------
E|-------3---------3---------3---------3--------------



"Come on!"
(Strum)

e|-------x--------x--------x--------x--------x--------
b|-------1--------0--------1--------5--------0--------
g|-------0--------0--------0--------0--------0--------
D|-------2--------2--------2--------x--------2--------
A|-------3--------3--------3--------7--------3--------
E|-------x--------x--------x--------x--------x--------
---------C------Cmaj7------C--------E------Cmaj7------