"Congratulations
" by Blue October
(Transcription by AggiePhil--phil@phildorsett.com)



Intro
(Pick)

e|--------------------------------------------
b|-------------------9------------------------
g|---------9-8---9-8-------9-8-------6--------
D|---------------------9-------9---7----------
A|-------7-----7---------7-------0------------
E|--------------------------------------------
---------------------------------A------------



Verses ("Is that seat taken...")
(Pick)

e|------------------------------------------------------------------------------------
b|-----------------------------5-------------9---------------5------------------------
g|---------9-8---9-8---9-8---6-----9-8---9-8-------9-8-----6-----6-------8------------
D|---------------------------------------------9---------7---------7-------9----------
A|-------7-----7-----7-----0-----7-----7---------7-----0-------0-----0-------9--------
E|---------------------------------------------------------------------7--------------
-------------------------------------------------------A---------------B--------------



Chorus & Bridge ("My heart, my pain won't cover up...")
(Strum)

e|-------x-------x-------x--------
b|-------x-------x-------x--------
g|-------9-------8-------6--------
D|-------9-------9-------7--------
A|-------7-------9-------7--------
E|-------7-------7-------5--------
--------E/B------B-------A--------



Repeat Verses & Chorus



Outro
(Single strum)

e|-------x-------x-------x-------x-------x--------
b|-------x-------x-------x-------x-------9--------
g|-------9-------8-------9-------x-------9--------
D|-------9-------9-------10------12------9--------
A|-------7-------9-------10------12------7--------
E|-------7-------7-------8-------10------7--------
--------E/B------B-------C-------D------E/B-------