"Conversation Via Radio (Do You Ever Wonder)" by Blue October
(Transcription by AggiePhil--phil@phildorsett.com)



Intro & Verses ("You must be broken by the thousand ways of wasting time...")
(Pick & Strum)
• "x" denotes a mute
• end verses with Cmaj chord & let ring

e|-------x-----x----------x----------x----------x----------x--------
b|-------1-----1----------3----------0----------3----------1--------
g|-------2-----2----------4----------0------0---0-0--------2--------
D|-------2-----2----------4----------2--------0-0---0------2--------
A|----0x-0-----0----------0----------3----------2-----2-0x-0--------
E|-------x-----x----------x----------x----------3----------x--------
---------Am---Am--slide--Bm/A------Cmaj7--------G----------Am-------



"I'm cramped and crawling from under the bed and I..."
(Strum)

e|-------x-------x-------x-------x--------
b|-------1-------3-------3-------0--------
g|-------0-------2-------0-------0--------
D|-------2-------0-------0-------2--------
A|-------3-------0-------2-------2--------
E|-------x-------x-------3-------x--------
---------C-------D-------G-------Em-------



"But now I just can't seem to be preoccupied..."
(Strum)

e|-------x-------x-------x-------x--------
b|-------1-------1-------1-------1--------
g|-------0-------2-------0-------2--------
D|-------2-------2-------2-------2--------
A|-------3-------0-------3-------0--------
E|-------x-------x-------x-------x--------
---------C-------Am------C-------Am-------


Repeat Verse


"Cause God made this night for me..."
(Single strum all but Am)

e|-------x-------x-------x-------x--------
b|-------3-------0-------1-------1--------
g|-------0-------0-------0-------2--------
D|-------0-------2-------2-------2--------
A|-------2-------2-------3-------0--------
E|-------3-------x-------x-------x--------
---------G-------Em------C-------Am-------



"But this year's the year I write to be..."
(Strum)

e|-------x----------x----------x----------x--------
b|-------3----------0----------1----------1--------
g|-------0----------0----------0----------2--------
D|-------0----------2----------2----------2--------
A|-------2----2-3-2-2----2-2-2-3----------0--------
E|-------3----------x----------x----------x--------
---------G----------Em---------C----------Am-------


Repeat Verse