"Darkest Side of Houston's Finest Day" by Blue October
(Transcription by AggiePhil--phil@phildorsett.com)



Intro & Verses ("Be scared...")
(One strum per chord)

e|-------x----x--------x----x--------x----------x----x------------------------------
b|-------x----x--------x----x--------x----------x----x------------------------------
g|-------x----4--------x----x--------x----------x----4------------------------------
D|-------x----5--------4----2--------2----4-----5----5------------------------------
A|-------5----5--------5----3--------3----------5----5------------------------------
E|-------3----3--------5----3--------3----------3----3------------------------------
---------G----G--------D---C/G------C/G--slide--G----G--(repeat from the D onward)--
Recording of the intro above (click here); note: in this recording, I strum the C/G chord twice right before the slide, when in reality, it should only get one strum



Chorus
(Strum)

e|-------x--------x--------
b|-------3--------2--------
g|-------0--------0--------
D|-------4--------2--------
A|-------5--------3--------
E|-------x--------x--------
-------Dadd4------C--------


Repeat Verse


Repeat Chorus



Outro
(Pick between the strings)

e|-------x-------
b|-------x-------
g|-------4-------
D|-------5-------
A|-------5-------
E|-------3-------
---------G-------