"Drop (Acoustic)" by Blue October
As seen on the "Argue With A Tree" DVD Special Features
(Transcription by AggiePhil--phil@phildorsett.com)



Intro & Verses ("I touch the tongue to see...")
(Strum)

e|-------x--------x--------x--------x--------x--------x--------x--------x--------x---------
b|-------0--------0--------0--------0--------x--------0--------0--------x--------0---------
g|-------1--------4--------2--------1--------x--------1--------1--------x--------1---------
D|-------2--------4--------2--------2--------x--------0--------2--------x--------0---------
A|-------2--------2--------0--------2--------x--------0--------2--------x--------0---------
E|-------x--------x--------0--------x--------x--------x--------x--------x--------x---------
---------E--------B5-----Asus2------E--------x-------E/D-------E--------x-------E/D--------



Chorus ("It's just a trip, not a way to ease your pain...")
(Strum, repeat four times)

e|-------x--------x--------x---------
b|-------0--------0--------0---------
g|-------6--------4--------2---------
D|-------6--------4--------2---------
A|-------4--------2--------0---------
E|-------x--------x--------0---------
--------C#5-------B5-----Asus2-------


Repeat Verse


Repeat Chorus


Bridge ("And now I'm so high...")
(Strum, repeat twice)

e|-------x--------x--------x--------x---------
b|-------0--------0--------0--------0---------
g|-------2--------4--------1--------6---------
D|-------2--------4--------2--------6---------
A|-------0--------2--------2--------4---------
E|-------0--------x--------x--------x---------
-------Asus2------B5-------E-------C#5--------


Repeat Chorus


Repeat Verse