"Hate Me" by Blue October
(Transcription by AggiePhil--phil@phildorsett.com)



Intro
(Strum)

e|-------x--------x--------x--------x--------
b|-------3--------0--------1--------3--------
g|-------0--------0--------0--------0--------
D|-------0--------2--------2--------4--------
A|-------2--------2--------3--------5--------
E|-------3--------0--------x--------x--------
---------G--------Em-------C------Dadd4------



1st Verse ("I have to block out thoughts of you so I don't lose my head...")
(Strum)
• Play twice


e|-------x--------x--------x--------x--------
b|-------3--------0--------1--------1--------
g|-------0--------0--------0--------2--------
D|-------0--------2--------2--------2--------
A|-------2--------2--------3--------0--------
E|-------3--------0--------x--------x--------
---------G--------Em-------C--------Am-------



Chorus 1 ("Hate me today...")
(Strum)

e|-------x----x----x--------x--------x--------x--------
b|-------3----3----0--------1--------3--------3--------
g|-------0----0----0--------0--------2--------0--------
D|-------0----0----2--------2--------0--------0--------
A|-------2----0----2--------3--------0--------2--------
E|-------3----2----0--------x--------x--------3--------
---------G---G/F#--Em-------C--------D--------G--------



2nd Verse ("I'm sober now for three whole months...")
(Strum)
• Play twice
• Tacit on G chord the first time through (come in on Em)

e|-------x--------x--------x--------x--------
b|-------3--------0--------1--------1--------
g|-------0--------0--------0--------2--------
D|-------0--------2--------2--------2--------
A|-------2--------2--------3--------0--------
E|-------3--------0--------x--------x--------
---------G--------Em-------C--------Am-------



Chorus 2 ("Hate me today...")
(Strum)

e|-------x----x----x--------x--------x--------x--------x----x----x--------x--------x--------x--------
b|-------3----3----0--------1--------3--------0--------3----3----0--------1--------3--------3--------
g|-------0----0----0--------0--------2--------0--------0----0----0--------0--------2--------0--------
D|-------0----0----2--------2--------0--------2--------0----0----2--------2--------0--------0--------
A|-------2----0----2--------3--------0--------2--------2----0----2--------3--------0--------2--------
E|-------3----2----0--------x--------x--------0--------3----2----0--------x--------x--------3--------
---------G---G/F#--Em-------C--------D--------Em-------G---G/F#--Em-------C--------D--------G--------



Bridge ("And then the sad part, I say bye to you and wave...")
(Strum)
• Play 4 times, but stop after D chord on the last time

e|-------x--------x--------x----x----x--------
b|-------1--------3--------3----3----0--------
g|-------0--------2--------0----0----0--------
D|-------2--------0--------0----0----2--------
A|-------3--------0--------2----0----2--------
E|-------x--------x--------3----2----0--------
---------C--------D--------G---G/F#--Em-------



Repeat Chorus 2