"HRSA" by Blue October
(Transcription by AggiePhil--phil@phildorsett.com)



1st half Intro
(Pick)

e|---------x----------x-----------x------------x----------
b|---------x----------x-----------x------------x----------
g|---------5----------12----------12-----------5----------
D|---------5----------12----------12-----------5----------
A|---------3----------10----------10-----------3----------
E|---------3----------10----------10-----------3----------
----------C/G--slide--G/D--slide--G/D--slide--C/G---------



2nd half Intro
(Strum)
• note the similarity between this lick and the chorus in "Blue Sunshine"

e|-------x-------x-------x-------x-------x-------x---------x--------
b|-------1-------3-------5-------6-------5-------3---------1--------
g|-------0-------0-------0-------0-------0-------0---------0--------
D|-------x-------x-------x-------7-------x-------x---------x--------
A|-------3-------5-------7-------8-------7-------5---------3--------
E|-------x-------x-------x-------x-------x-------x---------x--------
---------C-----Dadd4-----E?------F?------E?----Dadd4-slide-C--------



1st half Verses ("Admitted at 22...")
(Strum)

e|-------x-------x-------x-------x--------
b|-------1-------0-------1-------1--------
g|-------0-------0-------2-------2--------
D|-------2-------2-------2-------3--------
A|-------3-------2-------0-------3--------
E|-------x-------x-------x-------x--------
---------C-------Em------Am------F--------



2nd half Verses ("A bee sting straight through the arm...")
(Strum)

e|-------x-------x-------x-------x--------
b|-------1-------3-------5-------6--------
g|-------0-------0-------0-------0--------
D|-------x-------x-------x-------7--------
A|-------3-------5-------7-------8--------
E|-------x-------x-------x-------x--------
---------C-----Dadd4-----E?------F?-------



Repeat Verses