"Inner Glow" by Blue October
(Transcription by AggiePhil--phil@phildorsett.com)


Intro & Verses ("I'm like a storm could, eager when you go wild...")
(Strum)

e|-------x--------x--------x--------x--------
b|-------3--------1--------1--------3--------
g|-------0--------2--------0--------0--------
D|-------0--------2--------2--------0--------
A|-------2--------0--------3--------2--------
E|-------3--------x--------x--------3--------
---------G--------Am-------C--------G--------



Pre-Chorus ("Because, I'm on your side...")
(Strum)


e|-------x--------x--------x--------x--------
b|-------3--------1--------3--------3--------
g|-------2--------0--------0--------2--------
D|-------0--------2--------0--------0--------
A|-------0--------3--------2--------0--------
E|-------x--------x--------3--------x--------
---------D--------C--------G--------D--------



Chorus ("Whatever happened to our inner glow...")
(Strum)
•Changes between G/F#-G-Em are pretty fast ("the me I used to know")

e|-------x--------x--------x--------x--------x---x---x--------x--------x--------x--------
b|-------3--------1--------3--------3--------3---3---0--------1--------3--------3--------
g|-------0--------2--------2--------0--------0---0---0--------2--------2--------0--------
D|-------0--------2--------0--------0--------0---0---2--------2--------0--------0--------
A|-------2--------0--------0--------2--------0---2---2--------0--------0--------2--------
E|-------3--------x--------x--------3--------2---3---0--------x--------x--------3--------
---------G--------Am-------D--------G------G/F#--G---Em-------Am-------D--------G--------


Repeat Verses


Repeat Pre-Chorus


Repeat Chorus (twice)