"Kangaroo Cry" by 5591 (Justin Furstenfeld)
(Transcription by AggiePhil--phil@phildorsett.com)


Intro & Verses ("So why, can't I...")
(Single strum each chord)

e|-------x--------x--------x--------
b|-------1--------1--------0--------
g|-------0--------2--------0--------
D|-------2--------2--------2--------
A|-------3--------0--------2--------
E|-------x--------x--------x--------
---------C--------Am-------Em-------



Pre-Chorus ("Can't get by...")
(Strum)
• Changes between Am-A7sus2-Em are fast (A7sus2 is really just a brief "in between" chord)

e|-------x--------x-----x-----x--------
b|-------1--------1-----0-----0--------
g|-------0--------2-----0-----0--------
D|-------2--------2-----2-----2--------
A|-------3--------0-----0-----2--------
E|-------x--------x-----x-----x--------
---------C--------Am--A7sus2--Em-------



1st half of Chorus ("I kissed her on the cheek...")
(Strum)

e|-------x--------x--------
b|-------x--------x--------
g|-------x--------x--------
D|-------3--------5--------
A|-------3--------5--------
E|-------1--------3--------
---------F5-------G5-------



2nd half of Chorus ("We have to live by...")
(Strum)

e|-------x--------x--------x--------x--------x--------
b|-------x--------x--------x--------x--------x--------
g|-------x--------x--------x--------x--------x--------
D|-------10-------5--------7--------8--------3--------
A|-------10-------5--------7--------8--------3--------
E|-------8--------3--------5--------6--------1--------
---------C5-------G5-------A5------A#5-------F5-------



Repeat Verse

Repeat Pre-Chorus

Repeat Chorus

Repeat Verse