"Let It Go" by Blue October
(Transcription by AggiePhil--phil@phildorsett.com)



1st half Intro
(Finger Pick)

e|------------------------------------------------
b|---------1-1-0-0-0h1-------1-3-3-slide-5--------
g|---------------------2-0------------------------
D|---------2-2-2-2---------3----------------------
A|-------0----------------------------------------
E|------------------------------------------------



"Where do you go, when the..."
(Finger Pick)

e|------------------------------------------------------------------------------------------------
b|---------------1-----------1-----------1-----------1---------1---------1-----------1------------
g|-----------0-----0-----2-----2-------0---0-------0---0---------0---2-----2-------0---0----------
D|---------2---2-----2-3---3-----3---2-------2---2-------2---2-----3---3-----3---2-------2--------
A|-------3-------------------------3-----------3-----------3-------------------3------------------
E|------------------------------------------------------------------------------------------------
---------C-------------F-----------C-----------C-------------------F-----------C------------------



"Why do I feel this way..."
(Finger Pick)

e|----------------------------------------------------------------------------
b|-------------1-----------1-----------1-----------1-----------1--------------
g|-----------2---2-0---2-----2-------0---0-------2---2-0---2-----2------------
D|---------2---------3---3-----3---2-------2---2---------3---3-----3----------
A|-------0-----------------------3-----------0-----------------------3--------
E|----------------------------------------------------------------------------
---------Am----------F-----------C-----------Am----------F-----------C--------



"Why do I feel"
(Finger Pick)

e|----------------------------------------------------------------------------------------
b|---------------------------------------------------1-----------1-----------1------------
g|-------2-2-2-2p0-0-----2-2-2-2p0-0-----0-0-0-2---2---2-0---2-----2-------0---0----------
D|-------3-3-3-3p0-------3-3-3-3p0---------------2---------3---3-----3---2-------2--------
A|-----------------3---------------3-----3-3-3-0-----------------------3------------------
E|----------------------------------------------------------------------------------------
-----------------------------------------------Am----------F-----------C------------------



"Follow me home..."
(Finger Pick)
•Play twice

e|----------------------------------------------------------------------
b|-------------1-----------1---------1-----------1-----------1----------
g|-----------0---0-------0---0---2-----2-------0---0-------0---0--------
D|---------2-------2---2-------3---3-----3---2-------2---2--------------
A|-------3-----------3---------------------3-----------3----------------
E|----------------------------------------------------------------------
---------C---------------------F-----------C----------------------------



"Why did I go that way..."
(Finger Pick)
•Play twice; 2nd time through, stop after the first note of the last C chord (A string, fret 3)

e|------------------------------------------------------------------------------------------------
b|-------------1-----------1-----------1-----------1-----------1-----------1-----------1----------
g|-----------2---2-0---2-----2-------0---0-------0---0-----2-----2-0---2-----2-------0---0--------
D|---------2---------3---3-----3---2-------2---2-------0-2---2-------3---3-----3---2--------------
A|-------0-----------------------3-----------3-----------------------------------3----------------
E|------------------------------------------------------------------------------------------------
---------Am----------F-----------C-----------------------Am----------F-----------C----------------



"Why do I feel"
(Finger Pick)

e|----------------------------------------------------
b|----------------------------------------------------
g|-------2-2-2-2p0-0-----2-2-2-2p0-0-----0-0-0--------
D|-------3-3-3-3p0-------3-3-3-3p0--------------------
A|-----------------3---------------3-----3-3-3--------
E|----------------------------------------------------



Harmonica Break & Chorus
(Finger Pick)
•Play 8 times; on 8th time, stop after the first note of the last C chord (A string, fret 3)

e|--------------------------------------------------------------
b|-------------1-----------1-----------1-----------1------------
g|---------2-----2-0---2-----2-------0---0-------0---0----------
D|-------2---2-------3---3-----3---2-------2---2-------0--------
A|-------------------------------3-----------3------------------
E|--------------------------------------------------------------
---------Am----------F-----------C------------------------------



"How could I..."
(Finger Pick)

e|-------------------------------------------------------
b|-------------------------------------------------------
g|-------2-2-2-2p0-0-----2-2-2-2p0-0-----2-2-2--0--------
D|-------3-3-3-3p0-------3-3-3-3p0-------3-3-3-----------
A|-----------------3---------------3------------3--------
E|-------------------------------------------------------