"Morning Everything" by 5591 (Justin Furstenfeld)
(Transcription by AggiePhil--phil@phildorsett.com)



Intro
(Strum)

e|-----x------x------x----------x------x------x------x----------x------x------x------x----------x------x------x-------x----------x-------
b|-----0------0------3----------0------3------0------3----------0------3------0------3----------0------3------0-------3----------3-------
g|-----0------0------4----------0------0------0------4----------0------0------0------4----------0------0------0-------4----------4-------
D|-----2------2------4----------2------2------2------4----------2------2------2------4----------2------2------2-------4----2-2-2h4-------
A|-----3------2-----h2----------3------3------2-----h2----------3------3------2-----h2----------3------3------2------h2----------2-------
E|-----x------0-----h2----------x------x------0-----h2----------x------x------0-----h2----------x------x------0------h2----------2-------
-----Cmaj7----Em----Bm--------Cmaj7--Cadd9----Em----Bm--------Cmaj7--Cadd9----Em----Bm--------Cmaj7--Cadd9----Em-----Bm---------Bm-------



Verses ("Calling out, from afar, are you listening? On the sky...")
(Strum)

e|-----x------x------x----------x------x------x----------x------x------x----------x------x------x-------x----------x-------
b|-----0------0------3----------0------0------3----------0------0------3----------0------3------0-------3----------3-------
g|-----0------0------4----------0------0------4----------0------0------4----------0------0------0-------4----------4-------
D|-----2------2------4----------2------2------4----------2------2------4----------2------2------2-------4----2-2-2h4-------
A|-----3------2-----h2----------3------2-----h2----------3------2-----h2----------3------3------2------h2----------2-------
E|-----x------0-----h2----------x------0-----h2----------x------0-----h2----------x------x------0------h2----------2-------
-----Cmaj7----Em----Bm--------Cmaj7----Em----Bm--------Cmaj7----Em----Bm--------Cmaj7--Cadd9----Em-----Bm---------Bm-------



Chorus ("But breathe it out, breathe it in, you're the morning everything...")
(Strum)

e|-----x------x------x------x------x------x-------
b|-----3------3------3------1------0------3-------
g|-----0------2------0------0------0------4-------
D|-----0------0------2------2------2------4-------
A|-----2------0------2------3------2------2-------
E|-----3------2------0------x------0------2-------
-------G-----D/F#---Em7-----C------Em-----Bm------


Repeat Verses & Chorus