"Mountain
" by 5591 (Justin Furstenfeld)
(Transcription by AggiePhil--phil@phildorsett.com)



Intro & Verses ("If I can't be a brave boy, jumping off a head of a mountain...")
(Strum)

e|-------x---------x---------x----x----x--------
b|-------3---------3---------3----x----3--------
g|-------2---------3---------2---------0--------
D|-------0---------3---------0---------0--------
A|-------0---------0---------0---------2--------
E|-------x---------0---------x---------3--------
---------D---------A---------D---------G--------



Outro (Vocables)
(Soft, downward strums only)

e|-------x----x----x----x----x----x----x----x----x----x----x----x--------
b|-------3----3----3----0----3----3----3----0----3----3----3----3--------
g|-------2----2----2----0----3----3----3----0----2----2----2----0--------
D|-------0----0----0----0----3----3----3----0----0----0----0----0--------
A|-------0----0----0----x----0----0----0----x----0----0----0----2--------
E|-------x----x----x----x----0----0----0----x----x----x----x----3--------
---------D----D----D---Em/D--A----A----A---Em/D--D----D----D----G--------