"A Quiet Mind" by Blue October
(Transcription by AggiePhil--phil@phildorsett.com)


Intro
(Strum)

e|-------x--------x--------x--------x--------x--------x--------x--------x--------
b|-------3--------1--------0--------0--------1--------0--------1--------0--------
g|-------0--------0--------0--------0--------0--------0--------0--------0--------
D|-------2--------2--------2--------2--------2--------2--------2--------2--------
A|-------3--------3--------3--------0--------0--------0--------0--------0--------
E|-------x--------x--------x--------x--------x--------x--------x--------x--------
-------Cadd9------C------Cmaj7----A7sus2----Am7-----A7sus2----Am7-----A7sus2-----



Verses ("A slow strangle with your feet on the floor...")
(Strum)

e|-------x--------x--------x--------x--------x--------x--------x--------x--------x--------x--------
b|-------3--------1--------0--------0--------1--------0--------1--------0--------1--------1--------
g|-------0--------0--------0--------0--------0--------0--------0--------0--------2--------2--------
D|-------2--------2--------2--------2--------2--------2--------2--------2--------2--------3--------
A|-------3--------3--------3--------0--------0--------0--------0--------0--------0--------3--------
E|-------x--------x--------x--------x--------x--------x--------x--------x--------x--------x--------
-------Cadd9------C------Cmaj7----A7sus2----Am7-----A7sus2----Am7-----A7sus2-----Am-------F--------
Recording of the intro and first verse (click here)



Chorus ("You give me a quiet mind...")
(Strum)

e|-------x--------x--------x--------x--------
b|-------3--------1--------1--------3--------
g|-------0--------2--------0--------0--------
D|-------0--------2--------2--------0--------
A|-------2--------0--------3--------2--------
E|-------3--------x--------x--------3--------
---------G--------Am-------C--------G--------


Repeat Intro (twice)

Repeat Verse

Repeat Chorus

Repeat Intro (twice)


Outro ("Oh, oh, oh, oh...")
(Strum)
•Repeat 3 times
•End Outro on Cmaj7 and let ring

e|-------x--------x--------x--------x--------
b|-------3--------1--------0--------1--------
g|-------0--------0--------0--------0--------
D|-------2--------2--------2--------2--------
A|-------3--------3--------3--------3--------
E|-------x--------x--------x--------x--------
-------Cadd9------C------Cmaj7------C--------