"Spotlight" by 5591 (Justin Furstenfeld)
(Transcription by AggiePhil--phil@phildorsett.com)


Here's a recording of this song. Only thing is that I played the sequence on the chorus a bit wrong, but the general idea is still there...it's very close on the chorus and the rest is spot on.


Verses ("Don't ever let me take away your spotlight...")

e|--------------------------------------------------
b|-----------10-----10-------10-------10------------
g|---------9----9------9---9----9---9----9----------
D|-------7--------7------7--------7--------7--------
A|--------------------------------------------------
E|--------------------------------------------------


e|----------------------------------------------
b|-----------9-----9-------9-------9------------
g|---------9---9-----9---9---9---9---9----------
D|-------7-------7-----7-------7-------7--------
A|----------------------------------------------
E|----------------------------------------------


e|----------------------------------------------
b|-----------7-----7-------7-------7------------
g|---------7---7-----7---7---7---7---7----------
D|-------7-------7-----7-------7-------7--------
A|----------------------------------------------
E|----------------------------------------------


e|----------------------------------------------
b|-----------6-----6-------6-------6------------
g|---------7---7-----7---7---7---7---7----------
D|-------7-------7-----7-------7-------7--------
A|----------------------------------------------
E|----------------------------------------------


e|----------------------------------------------
b|-----------5-----5-------5-------5------------
g|---------6---6-----6---6---6---6---6----------
D|-------6-------6-----6-------6-------6--------
A|----------------------------------------------
E|----------------------------------------------


e|----------------------------------------------------
b|-----------3-----3---------------5-------3----------
g|---------4---4-----4-----------6---6---4---0--------
D|-------4-------4-----4-slide-6-------4--------------
A|----------------------------------------------------
E|----------------------------------------------------


e|----------------------------------------------
b|-----------2-----2-------2-------2------------
g|---------2---2-----2---2---2---2---2----------
D|-------2-------2-----2-------2-------2--------
A|----------------------------------------------
E|----------------------------------------------




Chorus ("So relax, relax, relax...relax")

e|----------------------------------------------
b|-----------2-------2-------2-------2----------
g|---------2---2---2---2---2---2---2---2--------
D|-------1-------1-------1-------1--------------
A|----------------------------------------------
E|----------------------------------------------


("you...")

e|----------------------------------------------
b|-----------2-------2-------2-------2----------
g|---------2---2---2---2---2---2---2---2--------
D|-------0-------0-------0-------0--------------
A|----------------------------------------------
E|----------------------------------------------


("We all need space and room to grow")

e|----------------------------------------------
b|-----------2-------2-------2-------2----------
g|---------2---2---2---2---2---2---2---2--------
D|-------2-------2-------2-------2--------------
A|----------------------------------------------
E|----------------------------------------------


("So relax, relax, relax...come here")

e|----------------------------------------------
b|-----------2-------2-------2-------2----------
g|---------2---2---2---2---2---2---2---2--------
D|-------2-------2-------2-------2--------------
A|----------------------------------------------
E|----------------------------------------------


("you...")

e|----------------------------------------------
b|-----------2-------2-------2-------2----------
g|---------2---2---2---2---2---2---2---2--------
D|-------1-------1-------1-------1--------------
A|----------------------------------------------
E|----------------------------------------------


("would you come here you...")

e|----------------------------------------------
b|-----------2-------2-------2-------2----------
g|---------2---2---2---2---2---2---2---2--------
D|-------0-------0-------0-------0--------------
A|----------------------------------------------
E|----------------------------------------------


("We all need space and room to grow")

e|--------------------------------
b|-----------2-------2---2--------
g|---------2---2---2---2-2--------
D|-------2-------2-------2--------
A|-----------------------0--------
E|--------------------------------