"Still Broken" by Blue October
(Transcription by AggiePhil--phil@phildorsett.com)


Intro & Verse 1 ("Many times, many times...")
(Pick)

e|----------------------------
b|----------------------------
g|---0h2-2-4-2-0-2-0h2--------
D|----------------------------
A|----------------------------
E|----------------------------



Other Verses & Chorus ("So, so I, I put away, put away...")
(Strum)

e|-------x--------x--------x--------x--------x--------x--------x--------
b|-------x--------x--------x--------x--------x--------x--------x--------
g|-------7--------6--------x--------x--------x--------x--------7--------
D|-------7--------7--------9--------7--------5--------7--------7--------
A|-------5--------7--------9--------7--------5--------7--------5--------
E|-------5--------5--------7--------5--------3--------5--------5--------
--------D/A-------A--------B5-------A5-------G5-------A5------D/A-------



Optional Guitar 2 (you can play this progression throughout the song)
(Strum)

e|-------x--------x--------x--------x--------x--------x--------x--------
b|-------7--------5--------3--------2--------0--------5--------7--------
g|-------7--------6--------4--------2--------0--------6--------7--------
D|-------7--------7--------0--------0--------0--------7--------7--------
A|-------0--------7--------5--------x--------x--------7--------0--------
E|-------x--------x--------x--------x--------x--------x--------x--------
--------D/A------A/E-------?-------A/D------G/D------A/E------D/A-------