"Talk to the Walls" by 5591 (Justin Furstenfeld)
(Transcription by AggiePhil--phil@phildorsett.com)



Intro & Verses ("I woke up this morning, 7 AM daybreak...")
(Pick)
• "h" indicates a hammer on
• repeat until chorus

e|-----------------------------------
b|-----------------------------------
g|-----------------------------------
D|---------2-----2---2-h3---3--------
A|-------3---3-3---3------3----------
E|-----------------------------------



Chorus ("Sing, sing...")
(Strum)
• have option of playing this strummed part or just repeating the verse sequence
• repeat throughout chorus

e|-------x-------x--------
b|-------1-------1--------
g|-------0-------2--------
D|-------2-------3--------
A|-------3-------3--------
E|-------x-------x--------
---------C-------F--------


Repeat Verses & Chorus