"Ugly Side" by Blue October
(Transcription by AggiePhil--phil@phildorsett.com)



Verses ("I must have sneezed, on knees I freeze, I mean...")
(Strum w/muted strums throughout)

e|-------x--------x--------x--------x--------x--------
b|-------3--------2--------3--------0--------3--------
g|-------4--------2--------0--------0--------4--------
D|-------4--------2--------0--------2--------4--------
A|-------2--------0--------2--------2--------2--------
E|-------2--------x--------3--------0--------2--------
---------Bm-------A--------G--------Em-------Bm-------



Chorus ("I only want you to see...")
(Strum)

e|-------x--------x--------x--------x--------x--------x--------
b|-------3--------3--------2--------3--------0--------3--------
g|-------0--------2--------2--------0--------0--------4--------
D|-------0--------0--------2--------0--------2--------4--------
A|-------2--------0--------0--------2--------2--------2--------
E|-------3--------x--------x--------3--------0--------2--------
---------G--------D--------A--------G--------Em-------Bm-------


Repeat Verse


Repeat Chorus Twice


Bridge ("So calm...")
(Strum)

e|-------x--------x--------x--------x--------x--------x--------x--------x--------
b|-------3--------2--------3--------2--------3--------3--------2--------3--------
g|-------0--------2--------2--------2--------4--------2--------2--------4--------
D|-------0--------2--------0--------2--------4--------0--------2--------4--------
A|-------2--------0--------0--------0--------2--------0--------0--------2--------
E|-------3--------x--------x--------x--------2--------x--------x--------2--------
---------G--------A--------D--------A--------Bm-------D--------A--------Bm-------



Outro ("And now it's dark...")
(Single strum)

e|-------x--------x--------x--------
b|-------3--------2--------3--------
g|-------0--------2--------4--------
D|-------0--------2--------4--------
A|-------2--------0--------2--------
E|-------3--------x--------2--------
---------G--------A--------Bm-------