"What If We Could/I Would Meet You" by 5591 (Justin Furstenfeld)
(Transcription by AggiePhil--phil@phildorsett.com)



Intro
(Strum)

e|-------x--------x--------x--------
b|-------1--------1--------1--------
g|-------2--------0--------2--------
D|-------2--------0--------2--------
A|-------0--------0--------0--------
E|-------x--------x--------x--------
---------Am----Am7add4-----Am-------



Entire Song ("What if we could...")
(Strum)

e|-------x--------x--------x--------x--------x--------
b|-------1--------1--------0--------1--------1--------
g|-------2--------0--------0--------2--------0--------
D|-------2--------2--------2--------2--------0--------
A|-------0--------3--------2--------0--------0--------
E|-------x--------x--------0--------x--------x--------
---------Am-------C--------Em-------Am----Am7add4-----